ISO-10303-21;
HEADER;
FILE_DESCRIPTION (( 'STEP AP203' ),
    '1' );
FILE_NAME ('QB-CTZHWP-25.4-1550-M.STEP',
    '2020-12-24T01:36:29',
    ( '' ),
    ( '' ),
    'SwSTEP 2.0',
    'SolidWorks 2020',
    '' );
FILE_SCHEMA (( 'CONFIG_CONTROL_DESIGN' ));
ENDSEC;

DATA;
#1 = LOCAL_TIME ( 9, 36, 29.00000000000000000, #171 ) ;
#2 = CIRCLE ( 'NONE', #12, 15.00000000000000000 ) ;
#3 = ADVANCED_FACE ( 'NONE', ( #105 ), #113, .T. ) ;
#4 = DIRECTION ( 'NONE',  ( -1.000000000000000000, -0.000000000000000000, -0.000000000000000000 ) ) ;
#5 = EDGE_LOOP ( 'NONE', ( #71, #114, #165, #138 ) ) ;
#6 = CARTESIAN_POINT ( 'NONE',  ( 3.000000000000000000, 0.000000000000000000, 0.000000000000000000 ) ) ;
#7 = PERSON_AND_ORGANIZATION ( #162, #80 ) ;
#8 = VERTEX_POINT ( 'NONE', #47 ) ;
#9 = CARTESIAN_POINT ( 'NONE',  ( -1.614212418857619014, 0.000000000000000000, 0.000000000000000000 ) ) ;
#10 = PERSON_AND_ORGANIZATION_ROLE ( 'design_owner' ) ;
#11 = APPROVAL_ROLE ( '' ) ;
#12 = AXIS2_PLACEMENT_3D ( 'NONE', #63, #15, #22 ) ;
#13 = ADVANCED_FACE ( 'NONE', ( #46 ), #60, .F. ) ;
#14 = PRODUCT ( 'QB-CTZHWP-25.4-1550-M', 'QB-CTZHWP-25.4-1550-M', '', ( #121 ) ) ;
#15 = DIRECTION ( 'NONE',  ( -1.000000000000000000, -0.000000000000000000, -0.000000000000000000 ) ) ;
#16 = CALENDAR_DATE ( 2020, 24, 12 ) ;
#17 = VECTOR ( 'NONE', #131, 1000.000000000000000 ) ;
#18 = EDGE_CURVE ( 'NONE', #19, #110, #100, .T. ) ;
#19 = VERTEX_POINT ( 'NONE', #45 ) ;
#20 = DIRECTION ( 'NONE',  ( -0.000000000000000000, 0.000000000000000000, 1.000000000000000000 ) ) ;
#21 = PERSON_AND_ORGANIZATION_ROLE ( 'design_supplier' ) ;
#22 = DIRECTION ( 'NONE',  ( 0.000000000000000000, 0.000000000000000000, 1.000000000000000000 ) ) ;
#23 = DATE_AND_TIME ( #16, #154 ) ;
#24 = MANIFOLD_SOLID_BREP ( 'Ðý×', #115 ) ;
#25 = DIRECTION ( 'NONE',  ( -1.000000000000000000, -0.000000000000000000, -0.000000000000000000 ) ) ;
#26 = DIRECTION ( 'NONE',  ( 0.000000000000000000, 0.000000000000000000, 1.000000000000000000 ) ) ;
#27 = PERSON_AND_ORGANIZATION ( #162, #80 ) ;
#28 = PERSON_AND_ORGANIZATION ( #162, #80 ) ;
#29 = PRODUCT_DEFINITION ( 'UNKNOWN', '', #41, #164 ) ;
#30 = CC_DESIGN_PERSON_AND_ORGANIZATION_ASSIGNMENT ( #73, #21, ( #41 ) ) ;
#31 = AXIS2_PLACEMENT_3D ( 'NONE', #78, #151, #104 ) ;
#32 = CARTESIAN_POINT ( 'NONE',  ( -3.000000000000000000, 1.836970198721029589E-15, -15.00000000000000000 ) ) ;
#33 = FACE_OUTER_BOUND ( 'NONE', #153, .T. ) ;
#34 = APPROVAL_DATE_TIME ( #91, #116 ) ;
#35 = CARTESIAN_POINT ( 'NONE',  ( -1.614212418857619014, 0.000000000000000000, 15.00000000000000000 ) ) ;
#36 = PERSON_AND_ORGANIZATION_ROLE ( 'classification_officer' ) ;
#37 = CC_DESIGN_APPROVAL ( #97, ( #41 ) ) ;
#38 = AXIS2_PLACEMENT_3D ( 'NONE', #88, #148, #20 ) ;
#39 = ORIENTED_EDGE ( 'NONE', *, *, #163, .T. ) ;
#40 = APPROVAL_STATUS ( 'not_yet_approved' ) ;
#41 = PRODUCT_DEFINITION_FORMATION_WITH_SPECIFIED_SOURCE ( 'ANY', '', #14, .NOT_KNOWN. ) ;
#42 = CC_DESIGN_PERSON_AND_ORGANIZATION_ASSIGNMENT ( #48, #36, ( #58 ) ) ;
#43 = CC_DESIGN_APPROVAL ( #116, ( #58 ) ) ;
#44 = APPROVAL_PERSON_ORGANIZATION ( #27, #97, #86 ) ;
#45 = CARTESIAN_POINT ( 'NONE',  ( 3.000000000000000000, 1.836970198721029589E-15, -15.00000000000000000 ) ) ;
#46 = FACE_OUTER_BOUND ( 'NONE', #99, .T. ) ;
#47 = CARTESIAN_POINT ( 'NONE',  ( 3.000000000000000000, 0.000000000000000000, 15.00000000000000000 ) ) ;
#48 = PERSON_AND_ORGANIZATION ( #162, #80 ) ;
#49 = LINE ( 'NONE', #35, #56 ) ;
#50 = CARTESIAN_POINT ( 'NONE',  ( -1.614212418857619014, 1.836970198721029589E-15, -15.00000000000000000 ) ) ;
#51 = CC_DESIGN_SECURITY_CLASSIFICATION ( #58, ( #41 ) ) ;
#52 = DATE_AND_TIME ( #53, #1 ) ;
#53 = CALENDAR_DATE ( 2020, 24, 12 ) ;
#54 = DIRECTION ( 'NONE',  ( 1.000000000000000000, 0.000000000000000000, 0.000000000000000000 ) ) ;
#55 = CARTESIAN_POINT ( 'NONE',  ( 0.000000000000000000, 0.000000000000000000, 0.000000000000000000 ) ) ;
#56 = VECTOR ( 'NONE', #106, 1000.000000000000000 ) ;
#57 = ADVANCED_FACE ( 'NONE', ( #33 ), #124, .F. ) ;
#58 = SECURITY_CLASSIFICATION ( '', '', #77 ) ;
#59 = UNCERTAINTY_MEASURE_WITH_UNIT (LENGTH_MEASURE( 1.000000000000000082E-05 ), #159, 'distance_accuracy_value', 'NONE');
#60 = PLANE ( 'NONE',  #31 ) ;
#61 = COORDINATED_UNIVERSAL_TIME_OFFSET ( 8, 0, .AHEAD. ) ;
#62 = DIRECTION ( 'NONE',  ( 0.000000000000000000, 0.000000000000000000, 1.000000000000000000 ) ) ;
#63 = CARTESIAN_POINT ( 'NONE',  ( 3.000000000000000000, 0.000000000000000000, 0.000000000000000000 ) ) ;
#64 = DATE_TIME_ROLE ( 'classification_date' ) ;
#65 = CARTESIAN_POINT ( 'NONE',  ( -3.000000000000000000, 0.000000000000000000, 0.000000000000000000 ) ) ;
#66 = ADVANCED_BREP_SHAPE_REPRESENTATION ( 'QB-CTZHWP-25.4-1550-M', ( #24, #133 ), #109 ) ;
#67 = APPROVAL_STATUS ( 'not_yet_approved' ) ;
#68 = APPROVAL ( #40, 'UNSPECIFIED' ) ;
#69 = APPLICATION_CONTEXT ( 'configuration controlled 3d designs of mechanical parts and assemblies' ) ;
#70 = CC_DESIGN_PERSON_AND_ORGANIZATION_ASSIGNMENT ( #7, #166, ( #41 ) ) ;
#71 = ORIENTED_EDGE ( 'NONE', *, *, #160, .T. ) ;
#72 = ORIENTED_EDGE ( 'NONE', *, *, #136, .T. ) ;
#73 = PERSON_AND_ORGANIZATION ( #162, #80 ) ;
#74 = DIRECTION ( 'NONE',  ( -1.000000000000000000, -0.000000000000000000, -0.000000000000000000 ) ) ;
#75 = ORIENTED_EDGE ( 'NONE', *, *, #18, .F. ) ;
#76 = APPROVAL_PERSON_ORGANIZATION ( #108, #68, #11 ) ;
#77 = SECURITY_CLASSIFICATION_LEVEL ( 'unclassified' ) ;
#78 = CARTESIAN_POINT ( 'NONE',  ( -3.000000000000000888, 12.69999999999999929, 0.000000000000000000 ) ) ;
#79 = CARTESIAN_POINT ( 'NONE',  ( -3.000000000000000000, 0.000000000000000000, 15.00000000000000000 ) ) ;
#80 = ORGANIZATION ( 'UNSPECIFIED', 'UNSPECIFIED', '' ) ;
#81 = LOCAL_TIME ( 9, 36, 29.00000000000000000, #61 ) ;
#82 = APPLICATION_PROTOCOL_DEFINITION ( 'international standard', 'config_control_design', 1994, #156 ) ;
#83 = DATE_TIME_ROLE ( 'creation_date' ) ;
#84 = PRODUCT_DEFINITION_SHAPE ( 'NONE', 'NONE',  #29 ) ;
#85 = AXIS2_PLACEMENT_3D ( 'NONE', #6, #4, #128 ) ;
#86 = APPROVAL_ROLE ( '' ) ;
#87 = CYLINDRICAL_SURFACE ( 'NONE', #120, 15.00000000000000000 ) ;
#88 = CARTESIAN_POINT ( 'NONE',  ( 3.000000000000000888, 12.69999999999999929, 0.000000000000000000 ) ) ;
#89 = COORDINATED_UNIVERSAL_TIME_OFFSET ( 8, 0, .AHEAD. ) ;
#90 = FACE_OUTER_BOUND ( 'NONE', #5, .T. ) ;
#91 = DATE_AND_TIME ( #152, #81 ) ;
#92 = ORIENTED_EDGE ( 'NONE', *, *, #137, .T. ) ;
#93 = EDGE_CURVE ( 'NONE', #8, #168, #49, .T. ) ;
#94 = PERSON_AND_ORGANIZATION_ROLE ( 'creator' ) ;
#95 =( NAMED_UNIT ( * ) PLANE_ANGLE_UNIT ( ) SI_UNIT ( $, .RADIAN. ) );
#96 = ADVANCED_FACE ( 'NONE', ( #90 ), #87, .T. ) ;
#97 = APPROVAL ( #173, 'UNSPECIFIED' ) ;
#98 = CC_DESIGN_APPROVAL ( #68, ( #29 ) ) ;
#99 = EDGE_LOOP ( 'NONE', ( #72, #39 ) ) ;
#100 = LINE ( 'NONE', #50, #17 ) ;
#101 = LOCAL_TIME ( 9, 36, 29.00000000000000000, #158 ) ;
#102 = CIRCLE ( 'NONE', #129, 15.00000000000000000 ) ;
#103 = APPROVAL_ROLE ( '' ) ;
#104 = DIRECTION ( 'NONE',  ( 0.000000000000000000, 0.000000000000000000, -1.000000000000000000 ) ) ;
#105 = FACE_OUTER_BOUND ( 'NONE', #118, .T. ) ;
#106 = DIRECTION ( 'NONE',  ( -1.000000000000000000, -0.000000000000000000, -0.000000000000000000 ) ) ;
#107 = PRODUCT_RELATED_PRODUCT_CATEGORY ( 'detail', '', ( #14 ) ) ;
#108 = PERSON_AND_ORGANIZATION ( #162, #80 ) ;
#109 =( GEOMETRIC_REPRESENTATION_CONTEXT ( 3 ) GLOBAL_UNCERTAINTY_ASSIGNED_CONTEXT ( ( #59 ) ) GLOBAL_UNIT_ASSIGNED_CONTEXT ( ( #159, #95, #132 ) ) REPRESENTATION_CONTEXT ( 'NONE', 'WORKASPACE' ) );
#110 = VERTEX_POINT ( 'NONE', #32 ) ;
#111 = CC_DESIGN_DATE_AND_TIME_ASSIGNMENT ( #145, #83, ( #29 ) ) ;
#112 = COORDINATED_UNIVERSAL_TIME_OFFSET ( 8, 0, .AHEAD. ) ;
#113 = CYLINDRICAL_SURFACE ( 'NONE', #123, 15.00000000000000000 ) ;
#114 = ORIENTED_EDGE ( 'NONE', *, *, #18, .T. ) ;
#115 = CLOSED_SHELL ( 'NONE', ( #96, #57, #3, #13 ) ) ;
#116 = APPROVAL ( #67, 'UNSPECIFIED' ) ;
#117 = DIRECTION ( 'NONE',  ( -1.000000000000000000, -0.000000000000000000, -0.000000000000000000 ) ) ;
#118 = EDGE_LOOP ( 'NONE', ( #75, #92, #143, #126 ) ) ;
#119 = CALENDAR_DATE ( 2020, 24, 12 ) ;
#120 = AXIS2_PLACEMENT_3D ( 'NONE', #9, #74, #127 ) ;
#121 = MECHANICAL_CONTEXT ( 'NONE', #156, 'mechanical' ) ;
#122 = APPROVAL_PERSON_ORGANIZATION ( #130, #116, #103 ) ;
#123 = AXIS2_PLACEMENT_3D ( 'NONE', #150, #25, #62 ) ;
#124 = PLANE ( 'NONE',  #38 ) ;
#125 = CALENDAR_DATE ( 2020, 24, 12 ) ;
#126 = ORIENTED_EDGE ( 'NONE', *, *, #163, .F. ) ;
#127 = DIRECTION ( 'NONE',  ( 0.000000000000000000, 0.000000000000000000, 1.000000000000000000 ) ) ;
#128 = DIRECTION ( 'NONE',  ( 0.000000000000000000, 0.000000000000000000, 1.000000000000000000 ) ) ;
#129 = AXIS2_PLACEMENT_3D ( 'NONE', #65, #117, #26 ) ;
#130 = PERSON_AND_ORGANIZATION ( #162, #80 ) ;
#131 = DIRECTION ( 'NONE',  ( -1.000000000000000000, -0.000000000000000000, -0.000000000000000000 ) ) ;
#132 =( NAMED_UNIT ( * ) SI_UNIT ( $, .STERADIAN. ) SOLID_ANGLE_UNIT ( ) );
#133 = AXIS2_PLACEMENT_3D ( 'NONE', #55, #134, #54 ) ;
#134 = DIRECTION ( 'NONE',  ( 0.000000000000000000, 0.000000000000000000, 1.000000000000000000 ) ) ;
#135 = PERSON_AND_ORGANIZATION ( #162, #80 ) ;
#136 = EDGE_CURVE ( 'NONE', #168, #110, #175, .T. ) ;
#137 = EDGE_CURVE ( 'NONE', #19, #8, #161, .T. ) ;
#138 = ORIENTED_EDGE ( 'NONE', *, *, #93, .F. ) ;
#139 = APPROVAL_DATE_TIME ( #169, #97 ) ;
#140 = AXIS2_PLACEMENT_3D ( 'NONE', #170, #155, #142 ) ;
#141 = ORIENTED_EDGE ( 'NONE', *, *, #137, .F. ) ;
#142 = DIRECTION ( 'NONE',  ( 0.000000000000000000, 0.000000000000000000, 1.000000000000000000 ) ) ;
#143 = ORIENTED_EDGE ( 'NONE', *, *, #93, .T. ) ;
#144 = LOCAL_TIME ( 9, 36, 29.00000000000000000, #112 ) ;
#145 = DATE_AND_TIME ( #119, #101 ) ;
#146 = CC_DESIGN_PERSON_AND_ORGANIZATION_ASSIGNMENT ( #28, #10, ( #14 ) ) ;
#147 = CC_DESIGN_DATE_AND_TIME_ASSIGNMENT ( #23, #64, ( #58 ) ) ;
#148 = DIRECTION ( 'NONE',  ( -1.000000000000000000, 0.000000000000000000, -0.000000000000000000 ) ) ;
#149 = SHAPE_DEFINITION_REPRESENTATION ( #84, #66 ) ;
#150 = CARTESIAN_POINT ( 'NONE',  ( -1.614212418857619014, 0.000000000000000000, 0.000000000000000000 ) ) ;
#151 = DIRECTION ( 'NONE',  ( 1.000000000000000000, 0.000000000000000000, 0.000000000000000000 ) ) ;
#152 = CALENDAR_DATE ( 2020, 24, 12 ) ;
#153 = EDGE_LOOP ( 'NONE', ( #167, #141 ) ) ;
#154 = LOCAL_TIME ( 9, 36, 29.00000000000000000, #89 ) ;
#155 = DIRECTION ( 'NONE',  ( -1.000000000000000000, -0.000000000000000000, -0.000000000000000000 ) ) ;
#156 = APPLICATION_CONTEXT ( 'configuration controlled 3d designs of mechanical parts and assemblies' ) ;
#157 = APPLICATION_PROTOCOL_DEFINITION ( 'international standard', 'config_control_design', 1994, #69 ) ;
#158 = COORDINATED_UNIVERSAL_TIME_OFFSET ( 8, 0, .AHEAD. ) ;
#159 =( LENGTH_UNIT ( ) NAMED_UNIT ( * ) SI_UNIT ( .MILLI., .METRE. ) );
#160 = EDGE_CURVE ( 'NONE', #8, #19, #2, .T. ) ;
#161 = CIRCLE ( 'NONE', #85, 15.00000000000000000 ) ;
#162 = PERSON ( 'UNSPECIFIED', 'UNSPECIFIED', 'UNSPECIFIED', ('UNSPECIFIED'), ('UNSPECIFIED'), ('UNSPECIFIED') ) ;
#163 = EDGE_CURVE ( 'NONE', #110, #168, #102, .T. ) ;
#164 = DESIGN_CONTEXT ( 'detailed design', #69, 'design' ) ;
#165 = ORIENTED_EDGE ( 'NONE', *, *, #136, .F. ) ;
#166 = PERSON_AND_ORGANIZATION_ROLE ( 'creator' ) ;
#167 = ORIENTED_EDGE ( 'NONE', *, *, #160, .F. ) ;
#168 = VERTEX_POINT ( 'NONE', #79 ) ;
#169 = DATE_AND_TIME ( #125, #144 ) ;
#170 = CARTESIAN_POINT ( 'NONE',  ( -3.000000000000000000, 0.000000000000000000, 0.000000000000000000 ) ) ;
#171 = COORDINATED_UNIVERSAL_TIME_OFFSET ( 8, 0, .AHEAD. ) ;
#172 = CC_DESIGN_PERSON_AND_ORGANIZATION_ASSIGNMENT ( #135, #94, ( #29 ) ) ;
#173 = APPROVAL_STATUS ( 'not_yet_approved' ) ;
#174 = APPROVAL_DATE_TIME ( #52, #68 ) ;
#175 = CIRCLE ( 'NONE', #140, 15.00000000000000000 ) ;
ENDSEC;
END-ISO-10303-21;
